Запах женщины. Carlos Gardel — Por Una Cabeza.

Этот пост ищет рекламодателя!

Все смотрели «Запах женщины» (Scent of a woman) с Аль Пачино? Другое название — Аромат женщины. Помните то божественное танго (Por Una Cabeza), которое он танцует с Габриэль Анвар (Gabrielle Anwar)? Когда я смотрел фильм, я прокрутил этот момент, наверное, больше 20 раз. Это то, что просто так не укладывается в моем сознании. То, что рвет душу на части. То, что заставляет любить.

Я перелопатил инет в поисках этого трека. Как оказалось, только ленивый еще не играл это танго. Поэтому было нелегко найти оригинал. Некоторые считают, что автор этого произведения Астор Пьяццолла, некоторые — что Карлос Гардель (Carlos Gardel).

Судя по всему настоящим автором является все же Гардель, а Пьяццолла обычно указывается в нотах, напечатанных для собственного использования музыкантами, не углублявшимися в суть авторства, исполняющими эти произведения на невзыскательной аудитории. Вывесили в интернете по чей-нибудь просьбе — и вот, уже пошла гулять по рукам версия партитуры, где автором музыки танго из фильма указан Астор Пьяццолла.

Por una cabeza в mp3

Послушать это танго и умереть от любви сейчас или скачать танго Por una cabeza в mp3 и умереть позже.
[audio:http://www.denkononov.ru/wp-content/uploads/2008/11/por-una-cabeza.mp3]

Табы Por una cabeza

Для гитаристов могу посоветовать табы Por una cabeza:

E||------------------------------0-------2-3-0h2---0----------------||
B||-------------0------------0h2-3-3-----0-------3-------3-2-2------||
G||------------2-2------1--2-----2-------2---------------2-2-2--0---||
D||-4-4--0-2---------------------0-----0---------2--------------2---||
A||-0---------5------0-----------------------------------2----------||
E||----------------------------------------------------2--------0-0-||

E||---32---53---0----------0---2------------------0-0h2-0------0-0-||
B||--4----4----0----0--------0---0-2---2---2-3--4---0-----4p2--2-2-||
G||---------------0----------------2-2---2------0--------------2-2-||
D||----------------------------------------------------------------||
A||-2----2-------------------------0-------4----4--------------0-0-||
E||-----------0--------0-2-3---4--------------------0--------------||

E||--------------||
B||-2------------||
G||---2-2-2-0----||
D||-----1-1-2----||
A||--------------||
E||-----1-1-0----||

E||------------------------------0--------0—2p0-2-2------0-2---0----||
B||-------------0------------0h2-3-3--3-3-------1-1--3-3---3-3-0----||
G||------------2-2------1--2-----2----2-2-------2-2--2-2---2---0----||
D||-4-4--0-2---------------------0--------------0-0------------0----||
A||-0---------5------0-----------------------------------------2—-2-||
E||------------------------------------------------------------3—-3-||

E||---0---0------------------------------0-2---0-0--------0-------||
B||---0-3-3-0------------3-1-0---3-----3-----3-0------2-3-2-2-3---||
G||-------0--------------0-0----2-2----2-------0------2-2---2-2---||
D||-----------4-2--0-1-2------------0----------2--------------0---||
A||------------------------------------2--------------------------||
E||-3-----3--------------3-----2--------------------0-------------||

E||---------------0-1-3-5-5-----------------------------1-1------------||
B||------------3--3-3-3-5-5-----------------------3-3-5-1-1------3---3-||
G||------------2--2-2-2-5-5---3-2-0---------------------2-2------3---3-||
D||------------0--0-0-0-------------3-2-0---------------3-3----0---0---||
A||-1p0--------0------------0-------------3-2-1-1---3---3-3------------||
E||-----3-1-0-------------------------------------------1-1--2---------||

E||-3--------------------------0-1---0-0------1-----1-0------------||
B||-3---3---------3---3-3--3-3-3-3-3-3-3----3-1-3---2-0------------||
G||-3-3-3-3-3-3-5-2-2-2-2--2-2-----2--------1---1-------------||
D||-5-------------0--------0--------------2-------2---------------||
A||-5-----5---------------------------------------------1-0-3-1-0----||
E||-3-------------------------------------------------------------||

E||-------------||
B||-------------||
G||-------------||
D||---------0---||
A||---1-0-0-----||
E||-3-----------||

 

Ноты Por una cabeza

ноты Por una cabeza
ноты Por una cabeza

Один ответ

Оставить ответ